ISO-10303-21;
HEADER;
FILE_DESCRIPTION (( 'STEP AP203' ),
    '1' );
FILE_NAME ('N-SF1-BPBSC-10-900-1300.STEP',
    '2021-01-05T02:13:42',
    ( '' ),
    ( '' ),
    'SwSTEP 2.0',
    'SolidWorks 2020',
    '' );
FILE_SCHEMA (( 'CONFIG_CONTROL_DESIGN' ));
ENDSEC;

DATA;
#1 = DIRECTION ( 'NONE',  ( -0.000000000000000000, 0.000000000000000000, -1.000000000000000000 ) ) ;
#2 = VERTEX_POINT ( 'NONE', #146 ) ;
#3 = CARTESIAN_POINT ( 'NONE',  ( -4.999999999999999112, -5.000000000000000000, 5.000000000000000000 ) ) ;
#4 = CLOSED_SHELL ( 'NONE', ( #317, #203, #44, #150, #141 ) ) ;
#5 = VERTEX_POINT ( 'NONE', #54 ) ;
#6 = ORIENTED_EDGE ( 'NONE', *, *, #15, .F. ) ;
#7 = PLANE ( 'NONE',  #231 ) ;
#8 = PLANE ( 'NONE',  #42 ) ;
#9 = EDGE_CURVE ( 'NONE', #2, #302, #300, .T. ) ;
#10 = VECTOR ( 'NONE', #134, 1000.000000000000000 ) ;
#11 = LINE ( 'NONE', #312, #102 ) ;
#12 = ORIENTED_EDGE ( 'NONE', *, *, #9, .T. ) ;
#13 = DIRECTION ( 'NONE',  ( 0.000000000000000000, -0.000000000000000000, 1.000000000000000000 ) ) ;
#14 = ORIENTED_EDGE ( 'NONE', *, *, #39, .F. ) ;
#15 = EDGE_CURVE ( 'NONE', #125, #193, #280, .T. ) ;
#16 = LINE ( 'NONE', #174, #57 ) ;
#17 = CC_DESIGN_PERSON_AND_ORGANIZATION_ASSIGNMENT ( #284, #152, ( #21 ) ) ;
#18 = DIRECTION ( 'NONE',  ( -0.7071067811865475727, -0.7071067811865474617, 0.000000000000000000 ) ) ;
#19 = CARTESIAN_POINT ( 'NONE',  ( 0.000000000000000000, 0.000000000000000000, 0.000000000000000000 ) ) ;
#20 = MECHANICAL_CONTEXT ( 'NONE', #286, 'mechanical' ) ;
#21 = PRODUCT_DEFINITION_FORMATION_WITH_SPECIFIED_SOURCE ( 'ANY', '', #201, .NOT_KNOWN. ) ;
#22 = DIRECTION ( 'NONE',  ( 1.000000000000000000, 0.000000000000000000, 0.000000000000000000 ) ) ;
#23 = AXIS2_PLACEMENT_3D ( 'NONE', #268, #94, #148 ) ;
#24 = LINE ( 'NONE', #116, #10 ) ;
#25 = DIRECTION ( 'NONE',  ( -4.857225732735059864E-17, -1.000000000000000000, 0.000000000000000000 ) ) ;
#26 = EDGE_CURVE ( 'NONE', #293, #5, #110, .T. ) ;
#27 = DIRECTION ( 'NONE',  ( 1.000000000000000000, -4.857225732735059864E-17, 0.000000000000000000 ) ) ;
#28 = ORIENTED_EDGE ( 'NONE', *, *, #115, .F. ) ;
#29 = DATE_TIME_ROLE ( 'creation_date' ) ;
#30 = SECURITY_CLASSIFICATION ( '', '', #104 ) ;
#31 = EDGE_CURVE ( 'NONE', #167, #93, #105, .T. ) ;
#32 = DIRECTION ( 'NONE',  ( 0.7071067811865475727, 0.7071067811865474617, 0.000000000000000000 ) ) ;
#33 = ORIENTED_EDGE ( 'NONE', *, *, #283, .T. ) ;
#34 = DIRECTION ( 'NONE',  ( -0.7071067811865475727, -0.7071067811865474617, 0.000000000000000000 ) ) ;
#35 = CARTESIAN_POINT ( 'NONE',  ( 0.000000000000000000, 0.000000000000000000, 5.000000000000000000 ) ) ;
#36 = EDGE_LOOP ( 'NONE', ( #28, #241, #111, #95 ) ) ;
#37 = DIRECTION ( 'NONE',  ( 1.734723475976807094E-16, 1.000000000000000000, -0.000000000000000000 ) ) ;
#38 = ORIENTED_EDGE ( 'NONE', *, *, #74, .T. ) ;
#39 = EDGE_CURVE ( 'NONE', #193, #114, #138, .T. ) ;
#40 = LOCAL_TIME ( 10, 13, 42.00000000000000000, #101 ) ;
#41 = PERSON_AND_ORGANIZATION_ROLE ( 'creator' ) ;
#42 = AXIS2_PLACEMENT_3D ( 'NONE', #310, #217, #305 ) ;
#43 = CARTESIAN_POINT ( 'NONE',  ( -4.999999999999999112, 5.000000000000001776, -5.000000000000000000 ) ) ;
#44 = ADVANCED_FACE ( 'NONE', ( #137 ), #156, .F. ) ;
#45 = CARTESIAN_POINT ( 'NONE',  ( 5.000000000000000888, 5.000000000000001776, 5.000000000000000000 ) ) ;
#46 = CARTESIAN_POINT ( 'NONE',  ( 5.000000000000000888, 5.000000000000001776, 5.000000000000000000 ) ) ;
#47 = EDGE_CURVE ( 'NONE', #114, #235, #24, .T. ) ;
#48 = LINE ( 'NONE', #208, #258 ) ;
#49 = EDGE_LOOP ( 'NONE', ( #55, #169, #61 ) ) ;
#50 = ADVANCED_BREP_SHAPE_REPRESENTATION ( 'N-SF1-BPBSC-10-900-1300', ( #254, #194, #89 ), #132 ) ;
#51 = PERSON_AND_ORGANIZATION_ROLE ( 'creator' ) ;
#52 = CC_DESIGN_PERSON_AND_ORGANIZATION_ASSIGNMENT ( #270, #41, ( #164 ) ) ;
#53 = DIRECTION ( 'NONE',  ( 2.220446049250313081E-16, 1.000000000000000000, 0.000000000000000000 ) ) ;
#54 = CARTESIAN_POINT ( 'NONE',  ( 5.000000000000000888, 5.000000000000001776, -5.000000000000000000 ) ) ;
#55 = ORIENTED_EDGE ( 'NONE', *, *, #283, .F. ) ;
#56 = UNCERTAINTY_MEASURE_WITH_UNIT (LENGTH_MEASURE( 1.000000000000000082E-05 ), #127, 'distance_accuracy_value', 'NONE');
#57 = VECTOR ( 'NONE', #262, 1000.000000000000000 ) ;
#58 = CARTESIAN_POINT ( 'NONE',  ( -4.999999999999999112, -5.000000000000000000, 5.000000000000000000 ) ) ;
#59 = EDGE_LOOP ( 'NONE', ( #63, #171, #267 ) ) ;
#60 = CARTESIAN_POINT ( 'NONE',  ( 0.000000000000000000, 0.000000000000000000, -5.000000000000000000 ) ) ;
#61 = ORIENTED_EDGE ( 'NONE', *, *, #144, .F. ) ;
#62 = CARTESIAN_POINT ( 'NONE',  ( 5.000000000000002665, 5.000000000000000000, -5.000000000000000000 ) ) ;
#63 = ORIENTED_EDGE ( 'NONE', *, *, #130, .T. ) ;
#64 = PLANE ( 'NONE',  #247 ) ;
#65 = EDGE_CURVE ( 'NONE', #118, #125, #216, .T. ) ;
#66 = ORIENTED_EDGE ( 'NONE', *, *, #65, .F. ) ;
#67 = DIRECTION ( 'NONE',  ( -1.734723475976807094E-16, -1.000000000000000000, 0.000000000000000000 ) ) ;
#68 = ORIENTED_EDGE ( 'NONE', *, *, #209, .T. ) ;
#69 = FACE_OUTER_BOUND ( 'NONE', #163, .T. ) ;
#70 = PRODUCT_DEFINITION_SHAPE ( 'NONE', 'NONE',  #164 ) ;
#71 = PERSON_AND_ORGANIZATION_ROLE ( 'design_owner' ) ;
#72 = DATE_AND_TIME ( #319, #320 ) ;
#73 = CARTESIAN_POINT ( 'NONE',  ( -5.000000000000000888, -4.999999999999998224, 5.000000000000000000 ) ) ;
#74 = EDGE_CURVE ( 'NONE', #118, #235, #233, .T. ) ;
#75 =( NAMED_UNIT ( * ) SI_UNIT ( $, .STERADIAN. ) SOLID_ANGLE_UNIT ( ) );
#76 = PRODUCT_RELATED_PRODUCT_CATEGORY ( 'detail', '', ( #201 ) ) ;
#77 = DIRECTION ( 'NONE',  ( -0.000000000000000000, -0.000000000000000000, -1.000000000000000000 ) ) ;
#78 = ADVANCED_FACE ( 'NONE', ( #135 ), #304, .F. ) ;
#79 = CARTESIAN_POINT ( 'NONE',  ( 5.000000000000002665, 5.000000000000000000, 5.000000000000000000 ) ) ;
#80 = ORIENTED_EDGE ( 'NONE', *, *, #316, .F. ) ;
#81 = AXIS2_PLACEMENT_3D ( 'NONE', #315, #122, #168 ) ;
#82 = CARTESIAN_POINT ( 'NONE',  ( 5.000000000000002665, 5.000000000000000000, 5.000000000000000000 ) ) ;
#83 = ORIENTED_EDGE ( 'NONE', *, *, #26, .F. ) ;
#84 = COORDINATED_UNIVERSAL_TIME_OFFSET ( 8, 0, .AHEAD. ) ;
#85 = CARTESIAN_POINT ( 'NONE',  ( 5.000000000000000888, 5.000000000000001776, -5.000000000000000000 ) ) ;
#86 = DATE_AND_TIME ( #275, #218 ) ;
#87 = LINE ( 'NONE', #107, #299 ) ;
#88 = EDGE_CURVE ( 'NONE', #93, #5, #48, .T. ) ;
#89 = AXIS2_PLACEMENT_3D ( 'NONE', #19, #296, #22 ) ;
#90 = CARTESIAN_POINT ( 'NONE',  ( 5.000000000000002665, 5.000000000000000000, -5.000000000000000000 ) ) ;
#91 = ORIENTED_EDGE ( 'NONE', *, *, #121, .F. ) ;
#92 = DIRECTION ( 'NONE',  ( 1.000000000000000000, 0.000000000000000000, 0.000000000000000000 ) ) ;
#93 = VERTEX_POINT ( 'NONE', #301 ) ;
#94 = DIRECTION ( 'NONE',  ( -0.000000000000000000, 0.000000000000000000, 1.000000000000000000 ) ) ;
#95 = ORIENTED_EDGE ( 'NONE', *, *, #190, .T. ) ;
#96 = PLANE ( 'NONE',  #23 ) ;
#97 = PERSON ( 'UNSPECIFIED', 'UNSPECIFIED', 'UNSPECIFIED', ('UNSPECIFIED'), ('UNSPECIFIED'), ('UNSPECIFIED') ) ;
#98 = ORGANIZATION ( 'UNSPECIFIED', 'UNSPECIFIED', '' ) ;
#99 = ORIENTED_EDGE ( 'NONE', *, *, #31, .T. ) ;
#100 = APPROVAL_STATUS ( 'not_yet_approved' ) ;
#101 = COORDINATED_UNIVERSAL_TIME_OFFSET ( 8, 0, .AHEAD. ) ;
#102 = VECTOR ( 'NONE', #126, 1000.000000000000000 ) ;
#103 = VECTOR ( 'NONE', #18, 1000.000000000000000 ) ;
#104 = SECURITY_CLASSIFICATION_LEVEL ( 'unclassified' ) ;
#105 = LINE ( 'NONE', #210, #271 ) ;
#106 = PERSON_AND_ORGANIZATION ( #97, #98 ) ;
#107 = CARTESIAN_POINT ( 'NONE',  ( -5.000000000000000888, -4.999999999999998224, -5.000000000000000000 ) ) ;
#108 = CC_DESIGN_PERSON_AND_ORGANIZATION_ASSIGNMENT ( #228, #71, ( #201 ) ) ;
#109 = CALENDAR_DATE ( 2021, 5, 1 ) ;
#110 = LINE ( 'NONE', #85, #306 ) ;
#111 = ORIENTED_EDGE ( 'NONE', *, *, #316, .T. ) ;
#112 = PERSON_AND_ORGANIZATION_ROLE ( 'classification_officer' ) ;
#113 = DIRECTION ( 'NONE',  ( -0.7071067811865475727, -0.7071067811865474617, 0.000000000000000000 ) ) ;
#114 = VERTEX_POINT ( 'NONE', #321 ) ;
#115 = EDGE_CURVE ( 'NONE', #302, #293, #87, .T. ) ;
#116 = CARTESIAN_POINT ( 'NONE',  ( 5.000000000000002665, 5.000000000000000000, -5.000000000000000000 ) ) ;
#117 = FACE_OUTER_BOUND ( 'NONE', #311, .T. ) ;
#118 = VERTEX_POINT ( 'NONE', #82 ) ;
#119 = APPROVAL_PERSON_ORGANIZATION ( #133, #200, #155 ) ;
#120 = DIRECTION ( 'NONE',  ( -0.000000000000000000, 0.000000000000000000, 1.000000000000000000 ) ) ;
#121 = EDGE_CURVE ( 'NONE', #125, #265, #188, .T. ) ;
#122 = DIRECTION ( 'NONE',  ( 1.000000000000000000, -2.220446049250313081E-16, 0.000000000000000000 ) ) ;
#123 = ORIENTED_EDGE ( 'NONE', *, *, #47, .T. ) ;
#124 = CARTESIAN_POINT ( 'NONE',  ( 5.000000000000000888, 5.000000000000001776, 5.000000000000000000 ) ) ;
#125 = VERTEX_POINT ( 'NONE', #3 ) ;
#126 = DIRECTION ( 'NONE',  ( -0.000000000000000000, 0.000000000000000000, -1.000000000000000000 ) ) ;
#127 =( LENGTH_UNIT ( ) NAMED_UNIT ( * ) SI_UNIT ( .MILLI., .METRE. ) );
#128 = APPLICATION_PROTOCOL_DEFINITION ( 'international standard', 'config_control_design', 1994, #286 ) ;
#129 = CARTESIAN_POINT ( 'NONE',  ( -5.000000000000000888, -4.999999999999998224, -5.000000000000000000 ) ) ;
#130 = EDGE_CURVE ( 'NONE', #5, #302, #213, .T. ) ;
#131 = PLANE ( 'NONE',  #266 ) ;
#132 =( GEOMETRIC_REPRESENTATION_CONTEXT ( 3 ) GLOBAL_UNCERTAINTY_ASSIGNED_CONTEXT ( ( #56 ) ) GLOBAL_UNIT_ASSIGNED_CONTEXT ( ( #127, #151, #75 ) ) REPRESENTATION_CONTEXT ( 'NONE', 'WORKASPACE' ) );
#133 = PERSON_AND_ORGANIZATION ( #97, #98 ) ;
#134 = DIRECTION ( 'NONE',  ( 1.734723475976807094E-16, 1.000000000000000000, -0.000000000000000000 ) ) ;
#135 = FACE_OUTER_BOUND ( 'NONE', #182, .T. ) ;
#136 = DATE_AND_TIME ( #282, #307 ) ;
#137 = FACE_OUTER_BOUND ( 'NONE', #313, .T. ) ;
#138 = LINE ( 'NONE', #273, #153 ) ;
#139 = EDGE_LOOP ( 'NONE', ( #123, #189, #221, #214 ) ) ;
#140 = CARTESIAN_POINT ( 'NONE',  ( 0.000000000000000000, 0.000000000000000000, -5.000000000000000000 ) ) ;
#141 = ADVANCED_FACE ( 'NONE', ( #219 ), #145, .F. ) ;
#142 = LOCAL_TIME ( 10, 13, 42.00000000000000000, #230 ) ;
#143 = PLANE ( 'NONE',  #81 ) ;
#144 = EDGE_CURVE ( 'NONE', #265, #114, #16, .T. ) ;
#145 = PLANE ( 'NONE',  #204 ) ;
#146 = CARTESIAN_POINT ( 'NONE',  ( -5.000000000000000888, -4.999999999999998224, 5.000000000000000000 ) ) ;
#147 = DIRECTION ( 'NONE',  ( -0.7071067811865475727, -0.7071067811865474617, 0.000000000000000000 ) ) ;
#148 = DIRECTION ( 'NONE',  ( 1.000000000000000000, 0.000000000000000000, 0.000000000000000000 ) ) ;
#149 = VECTOR ( 'NONE', #272, 1000.000000000000000 ) ;
#150 = ADVANCED_FACE ( 'NONE', ( #172 ), #64, .T. ) ;
#151 =( NAMED_UNIT ( * ) PLANE_ANGLE_UNIT ( ) SI_UNIT ( $, .RADIAN. ) );
#152 = PERSON_AND_ORGANIZATION_ROLE ( 'design_supplier' ) ;
#153 = VECTOR ( 'NONE', #162, 1000.000000000000000 ) ;
#154 = VECTOR ( 'NONE', #34, 1000.000000000000000 ) ;
#155 = APPROVAL_ROLE ( '' ) ;
#156 = PLANE ( 'NONE',  #176 ) ;
#157 = APPLICATION_CONTEXT ( 'configuration controlled 3d designs of mechanical parts and assemblies' ) ;
#158 = EDGE_LOOP ( 'NONE', ( #173, #160, #68, #12 ) ) ;
#159 = CARTESIAN_POINT ( 'NONE',  ( 5.000000000000002665, 5.000000000000000000, 5.000000000000000000 ) ) ;
#160 = ORIENTED_EDGE ( 'NONE', *, *, #88, .F. ) ;
#161 = DESIGN_CONTEXT ( 'detailed design', #157, 'design' ) ;
#162 = DIRECTION ( 'NONE',  ( -0.000000000000000000, -0.000000000000000000, -1.000000000000000000 ) ) ;
#163 = EDGE_LOOP ( 'NONE', ( #308, #237, #240 ) ) ;
#164 = PRODUCT_DEFINITION ( 'UNKNOWN', '', #21, #161 ) ;
#165 = VECTOR ( 'NONE', #147, 1000.000000000000000 ) ;
#166 = VECTOR ( 'NONE', #184, 1000.000000000000000 ) ;
#167 = VERTEX_POINT ( 'NONE', #198 ) ;
#168 = DIRECTION ( 'NONE',  ( 0.000000000000000000, 0.000000000000000000, 1.000000000000000000 ) ) ;
#169 = ORIENTED_EDGE ( 'NONE', *, *, #47, .F. ) ;
#170 = LINE ( 'NONE', #225, #248 ) ;
#171 = ORIENTED_EDGE ( 'NONE', *, *, #115, .T. ) ;
#172 = FACE_OUTER_BOUND ( 'NONE', #289, .T. ) ;
#173 = ORIENTED_EDGE ( 'NONE', *, *, #130, .F. ) ;
#174 = CARTESIAN_POINT ( 'NONE',  ( -4.999999999999999112, -5.000000000000000000, -5.000000000000000000 ) ) ;
#175 = LINE ( 'NONE', #73, #149 ) ;
#176 = AXIS2_PLACEMENT_3D ( 'NONE', #46, #25, #239 ) ;
#177 = APPROVAL_DATE_TIME ( #72, #274 ) ;
#178 = APPROVAL_PERSON_ORGANIZATION ( #238, #207, #183 ) ;
#179 = AXIS2_PLACEMENT_3D ( 'NONE', #79, #181, #32 ) ;
#180 = COORDINATED_UNIVERSAL_TIME_OFFSET ( 8, 0, .AHEAD. ) ;
#181 = DIRECTION ( 'NONE',  ( 0.7071067811865474617, -0.7071067811865475727, 0.000000000000000000 ) ) ;
#182 = EDGE_LOOP ( 'NONE', ( #33, #91, #66, #38 ) ) ;
#183 = APPROVAL_ROLE ( '' ) ;
#184 = DIRECTION ( 'NONE',  ( -0.000000000000000000, -0.000000000000000000, -1.000000000000000000 ) ) ;
#185 = SHAPE_DEFINITION_REPRESENTATION ( #70, #50 ) ;
#186 = DIRECTION ( 'NONE',  ( 1.000000000000000000, 0.000000000000000000, 0.000000000000000000 ) ) ;
#187 = DATE_AND_TIME ( #215, #142 ) ;
#188 = LINE ( 'NONE', #236, #166 ) ;
#189 = ORIENTED_EDGE ( 'NONE', *, *, #74, .F. ) ;
#190 = EDGE_CURVE ( 'NONE', #167, #293, #11, .T. ) ;
#191 = FACE_OUTER_BOUND ( 'NONE', #49, .T. ) ;
#192 = CARTESIAN_POINT ( 'NONE',  ( -4.999999999999999112, -5.000000000000000000, -5.000000000000000000 ) ) ;
#193 = VERTEX_POINT ( 'NONE', #244 ) ;
#194 = MANIFOLD_SOLID_BREP ( '¾µÏ', #4 ) ;
#195 = ORIENTED_EDGE ( 'NONE', *, *, #144, .T. ) ;
#196 = DIRECTION ( 'NONE',  ( 2.220446049250313081E-16, 1.000000000000000000, 0.000000000000000000 ) ) ;
#197 = EDGE_CURVE ( 'NONE', #193, #118, #170, .T. ) ;
#198 = CARTESIAN_POINT ( 'NONE',  ( -4.999999999999999112, 5.000000000000001776, 5.000000000000000000 ) ) ;
#199 = FACE_OUTER_BOUND ( 'NONE', #158, .T. ) ;
#200 = APPROVAL ( #234, 'UNSPECIFIED' ) ;
#201 = PRODUCT ( 'N-SF1-BPBSC-10-900-1300', 'N-SF1-BPBSC-10-900-1300', '', ( #20 ) ) ;
#202 = DIRECTION ( 'NONE',  ( 0.7071067811865475727, 0.7071067811865474617, 0.000000000000000000 ) ) ;
#203 = ADVANCED_FACE ( 'NONE', ( #246 ), #143, .F. ) ;
#204 = AXIS2_PLACEMENT_3D ( 'NONE', #140, #13, #223 ) ;
#205 = APPROVAL_STATUS ( 'not_yet_approved' ) ;
#206 = CARTESIAN_POINT ( 'NONE',  ( 5.000000000000002665, 5.000000000000000000, 5.000000000000000000 ) ) ;
#207 = APPROVAL ( #205, 'UNSPECIFIED' ) ;
#208 = CARTESIAN_POINT ( 'NONE',  ( 5.000000000000000888, 5.000000000000001776, 5.000000000000000000 ) ) ;
#209 = EDGE_CURVE ( 'NONE', #93, #2, #294, .T. ) ;
#210 = CARTESIAN_POINT ( 'NONE',  ( 5.000000000000000888, 5.000000000000001776, 5.000000000000000000 ) ) ;
#211 = CC_DESIGN_PERSON_AND_ORGANIZATION_ASSIGNMENT ( #279, #51, ( #21 ) ) ;
#212 = APPROVAL_DATE_TIME ( #86, #207 ) ;
#213 = LINE ( 'NONE', #303, #165 ) ;
#214 = ORIENTED_EDGE ( 'NONE', *, *, #39, .T. ) ;
#215 = CALENDAR_DATE ( 2021, 5, 1 ) ;
#216 = LINE ( 'NONE', #159, #291 ) ;
#217 = DIRECTION ( 'NONE',  ( 0.000000000000000000, 1.000000000000000000, 0.000000000000000000 ) ) ;
#218 = LOCAL_TIME ( 10, 13, 42.00000000000000000, #84 ) ;
#219 = FACE_OUTER_BOUND ( 'NONE', #59, .T. ) ;
#220 = FACE_OUTER_BOUND ( 'NONE', #139, .T. ) ;
#221 = ORIENTED_EDGE ( 'NONE', *, *, #197, .F. ) ;
#222 = ADVANCED_FACE ( 'NONE', ( #69 ), #96, .T. ) ;
#223 = DIRECTION ( 'NONE',  ( 2.220446049250313081E-16, 1.000000000000000000, 0.000000000000000000 ) ) ;
#224 = CC_DESIGN_SECURITY_CLASSIFICATION ( #30, ( #21 ) ) ;
#225 = CARTESIAN_POINT ( 'NONE',  ( 5.000000000000002665, 5.000000000000000000, 5.000000000000000000 ) ) ;
#226 = APPLICATION_PROTOCOL_DEFINITION ( 'international standard', 'config_control_design', 1994, #157 ) ;
#227 = CC_DESIGN_APPROVAL ( #200, ( #21 ) ) ;
#228 = PERSON_AND_ORGANIZATION ( #97, #98 ) ;
#229 = ADVANCED_FACE ( 'NONE', ( #220 ), #7, .F. ) ;
#230 = COORDINATED_UNIVERSAL_TIME_OFFSET ( 8, 0, .AHEAD. ) ;
#231 = AXIS2_PLACEMENT_3D ( 'NONE', #292, #242, #67 ) ;
#232 = APPROVAL_DATE_TIME ( #187, #200 ) ;
#233 = LINE ( 'NONE', #206, #314 ) ;
#234 = APPROVAL_STATUS ( 'not_yet_approved' ) ;
#235 = VERTEX_POINT ( 'NONE', #90 ) ;
#236 = CARTESIAN_POINT ( 'NONE',  ( -4.999999999999999112, -5.000000000000000000, 5.000000000000000000 ) ) ;
#237 = ORIENTED_EDGE ( 'NONE', *, *, #15, .T. ) ;
#238 = PERSON_AND_ORGANIZATION ( #97, #98 ) ;
#239 = DIRECTION ( 'NONE',  ( -1.000000000000000000, 4.857225732735059864E-17, 0.000000000000000000 ) ) ;
#240 = ORIENTED_EDGE ( 'NONE', *, *, #197, .T. ) ;
#241 = ORIENTED_EDGE ( 'NONE', *, *, #9, .F. ) ;
#242 = DIRECTION ( 'NONE',  ( -1.000000000000000000, 1.734723475976807094E-16, 0.000000000000000000 ) ) ;
#243 = APPROVAL_PERSON_ORGANIZATION ( #297, #274, #295 ) ;
#244 = CARTESIAN_POINT ( 'NONE',  ( 5.000000000000000888, -5.000000000000000000, 5.000000000000000000 ) ) ;
#245 = ADVANCED_FACE ( 'NONE', ( #117 ), #8, .F. ) ;
#246 = FACE_OUTER_BOUND ( 'NONE', #36, .T. ) ;
#247 = AXIS2_PLACEMENT_3D ( 'NONE', #35, #290, #196 ) ;
#248 = VECTOR ( 'NONE', #37, 1000.000000000000000 ) ;
#249 = VECTOR ( 'NONE', #186, 1000.000000000000000 ) ;
#250 = COORDINATED_UNIVERSAL_TIME_OFFSET ( 8, 0, .AHEAD. ) ;
#251 = DATE_TIME_ROLE ( 'classification_date' ) ;
#252 = CARTESIAN_POINT ( 'NONE',  ( -5.000000000000000888, -4.999999999999998224, 5.000000000000000000 ) ) ;
#253 = CC_DESIGN_APPROVAL ( #274, ( #164 ) ) ;
#254 = MANIFOLD_SOLID_BREP ( 'Í¹Ì¨-À', #285 ) ;
#255 = ORIENTED_EDGE ( 'NONE', *, *, #88, .T. ) ;
#256 = DATE_AND_TIME ( #109, #40 ) ;
#257 = DIRECTION ( 'NONE',  ( 1.000000000000000000, -4.857225732735059864E-17, 0.000000000000000000 ) ) ;
#258 = VECTOR ( 'NONE', #1, 1000.000000000000000 ) ;
#259 = DIRECTION ( 'NONE',  ( -0.000000000000000000, 0.000000000000000000, -1.000000000000000000 ) ) ;
#260 = ORIENTED_EDGE ( 'NONE', *, *, #121, .T. ) ;
#261 = CC_DESIGN_PERSON_AND_ORGANIZATION_ASSIGNMENT ( #106, #112, ( #30 ) ) ;
#262 = DIRECTION ( 'NONE',  ( 1.000000000000000000, 0.000000000000000000, 0.000000000000000000 ) ) ;
#263 = ORIENTED_EDGE ( 'NONE', *, *, #209, .F. ) ;
#264 = ADVANCED_FACE ( 'NONE', ( #191 ), #287, .F. ) ;
#265 = VERTEX_POINT ( 'NONE', #192 ) ;
#266 = AXIS2_PLACEMENT_3D ( 'NONE', #45, #269, #202 ) ;
#267 = ORIENTED_EDGE ( 'NONE', *, *, #26, .T. ) ;
#268 = CARTESIAN_POINT ( 'NONE',  ( 0.000000000000000000, 0.000000000000000000, 5.000000000000000000 ) ) ;
#269 = DIRECTION ( 'NONE',  ( -0.7071067811865474617, 0.7071067811865475727, 0.000000000000000000 ) ) ;
#270 = PERSON_AND_ORGANIZATION ( #97, #98 ) ;
#271 = VECTOR ( 'NONE', #27, 1000.000000000000000 ) ;
#272 = DIRECTION ( 'NONE',  ( 2.220446049250313081E-16, 1.000000000000000000, 0.000000000000000000 ) ) ;
#273 = CARTESIAN_POINT ( 'NONE',  ( 5.000000000000000888, -5.000000000000000000, 5.000000000000000000 ) ) ;
#274 = APPROVAL ( #100, 'UNSPECIFIED' ) ;
#275 = CALENDAR_DATE ( 2021, 5, 1 ) ;
#276 = VECTOR ( 'NONE', #259, 1000.000000000000000 ) ;
#277 = CC_DESIGN_APPROVAL ( #207, ( #30 ) ) ;
#278 = ORIENTED_EDGE ( 'NONE', *, *, #31, .F. ) ;
#279 = PERSON_AND_ORGANIZATION ( #97, #98 ) ;
#280 = LINE ( 'NONE', #58, #249 ) ;
#281 = ORIENTED_EDGE ( 'NONE', *, *, #190, .F. ) ;
#282 = CALENDAR_DATE ( 2021, 5, 1 ) ;
#283 = EDGE_CURVE ( 'NONE', #235, #265, #288, .T. ) ;
#284 = PERSON_AND_ORGANIZATION ( #97, #98 ) ;
#285 = CLOSED_SHELL ( 'NONE', ( #78, #245, #229, #222, #264 ) ) ;
#286 = APPLICATION_CONTEXT ( 'configuration controlled 3d designs of mechanical parts and assemblies' ) ;
#287 = PLANE ( 'NONE',  #298 ) ;
#288 = LINE ( 'NONE', #62, #103 ) ;
#289 = EDGE_LOOP ( 'NONE', ( #263, #278, #80 ) ) ;
#290 = DIRECTION ( 'NONE',  ( 0.000000000000000000, -0.000000000000000000, 1.000000000000000000 ) ) ;
#291 = VECTOR ( 'NONE', #113, 1000.000000000000000 ) ;
#292 = CARTESIAN_POINT ( 'NONE',  ( 5.000000000000002665, 5.000000000000000000, 5.000000000000000000 ) ) ;
#293 = VERTEX_POINT ( 'NONE', #43 ) ;
#294 = LINE ( 'NONE', #124, #154 ) ;
#295 = APPROVAL_ROLE ( '' ) ;
#296 = DIRECTION ( 'NONE',  ( 0.000000000000000000, 0.000000000000000000, 1.000000000000000000 ) ) ;
#297 = PERSON_AND_ORGANIZATION ( #97, #98 ) ;
#298 = AXIS2_PLACEMENT_3D ( 'NONE', #60, #120, #92 ) ;
#299 = VECTOR ( 'NONE', #53, 1000.000000000000000 ) ;
#300 = LINE ( 'NONE', #252, #276 ) ;
#301 = CARTESIAN_POINT ( 'NONE',  ( 5.000000000000000888, 5.000000000000001776, 5.000000000000000000 ) ) ;
#302 = VERTEX_POINT ( 'NONE', #129 ) ;
#303 = CARTESIAN_POINT ( 'NONE',  ( 5.000000000000000888, 5.000000000000001776, -5.000000000000000000 ) ) ;
#304 = PLANE ( 'NONE',  #179 ) ;
#305 = DIRECTION ( 'NONE',  ( 0.000000000000000000, -0.000000000000000000, 1.000000000000000000 ) ) ;
#306 = VECTOR ( 'NONE', #257, 1000.000000000000000 ) ;
#307 = LOCAL_TIME ( 10, 13, 42.00000000000000000, #180 ) ;
#308 = ORIENTED_EDGE ( 'NONE', *, *, #65, .T. ) ;
#309 = CC_DESIGN_DATE_AND_TIME_ASSIGNMENT ( #256, #29, ( #164 ) ) ;
#310 = CARTESIAN_POINT ( 'NONE',  ( -4.999999999999999112, -5.000000000000000000, 5.000000000000000000 ) ) ;
#311 = EDGE_LOOP ( 'NONE', ( #195, #14, #6, #260 ) ) ;
#312 = CARTESIAN_POINT ( 'NONE',  ( -4.999999999999999112, 5.000000000000001776, 5.000000000000000000 ) ) ;
#313 = EDGE_LOOP ( 'NONE', ( #83, #281, #99, #255 ) ) ;
#314 = VECTOR ( 'NONE', #77, 1000.000000000000000 ) ;
#315 = CARTESIAN_POINT ( 'NONE',  ( -5.000000000000000888, -4.999999999999998224, 5.000000000000000000 ) ) ;
#316 = EDGE_CURVE ( 'NONE', #2, #167, #175, .T. ) ;
#317 = ADVANCED_FACE ( 'NONE', ( #199 ), #131, .F. ) ;
#318 = CC_DESIGN_DATE_AND_TIME_ASSIGNMENT ( #136, #251, ( #30 ) ) ;
#319 = CALENDAR_DATE ( 2021, 5, 1 ) ;
#320 = LOCAL_TIME ( 10, 13, 42.00000000000000000, #250 ) ;
#321 = CARTESIAN_POINT ( 'NONE',  ( 5.000000000000000888, -5.000000000000000000, -5.000000000000000000 ) ) ;
ENDSEC;
END-ISO-10303-21;
